cifras.art.br - cifras e tablaturas de Nando Reis para violão e guitarra


Você está vendo a música Wonderful Tonight de Eric Clapton. Quer ver cifras de outros artistas? Use o abecedário abaixo.

ABCDEFGHIJKLMNOPQRSTUVWXYZ0-9Temas e Jingles

Exibindo letra cifrada

Intro:
       G       D/F#        C         D
e|-----3---------2---------0---------0-----
b|---3--3------3--3------1--1------3--3----
g|--4-4--4----2-2--2----0-0--0----2-2--2---
d|-5------5--4------4--2------2--0------0--
a|-----------------------------------------
e|-----------------------------------------


e|-----------------------------------------------------------|
b|-----------------------------------------------------------|
g|--10b--r10--8--10~~--10b--r10--8--------10b--r10--8--10----|
d|-----------------------------------9~~---------------------|
a|-----------------------------------------------------------|
E|-----------------------------------------------------------|

e|------------------------------------------|
b|------------------------------------------|
g|--12--13--15b--r15--15--------------------|
d|------------------------------------------|
a|------------------------------------------|
E|-----------------------------------------|

Nos acordes onde estão os asteriscos fica assim:
     G   D/F#    Em
e|---3----0------0--------|
b|-------------0--0-------|
g|--0-0--2-2--0-0--0------|
d|------------------2-----|
a|------------------------|
E|-3----2----0------------|

 G                   D/F#
  It's late in the evening
 C                       D
  She's wondering what clothes to wear
 G                D/F#
  She puts on her make up
 C                  D
  And brushes her long blonde hair
 C               D
  And then she asks me
 (G      D/F#  Em)*
   Do I look alright
              C             D           G     D/F#  C  D
   And I say yes, you look wonderful tonight


 G           D/F#
  We go to a party
 C              D
  And everyone turns to see
 G               D/F#
  This beautiful lady
 C                 D
  That's walking around with me
 C               D
  And then she asks me
 (G       D/F#  Em)*
  Do you feel alright
             C           D           G
  And I say yes, I feel wonderful tonight


          C
  I feel wonderful
     D               (G        D/F# Em)*
  Because I see the love light in your eyes
           C           D
  And the wonder of it all
               C             D
  Is that you just don't realize
              G        
  How much I love you

  Intro (1x)


 G                 D/F#
  It's time to go home now
 C                   D
  And I've got an aching head
 G                     D/F#
  So I give her the car keys
 C                  D
  She helps me to bed
 C              D
  And then I tell her
 (G     D/F#     Em)*
  As I turn out the light
             C                 D           (G    D/F# Em)*
  I say my darling, you were wonderful tonight
          C                 D           G   
  Oh my darling, you were wonderful tonight

  Intro (2x)


____________________________________________
Contribuição: Rodrigo Osna(r_osna@yahoo.com)
Correção: Bruno Teixeira (bbat@ism.com.br)





Versão 2
-======-

Intro:
   G                 D	               F                 D    
e|---------8-7-5-7...7......-8-7-5-0...0......58-7-5-7...7..............-|
B|-------0---------|-----7-----------|-----------------|-----7-----------|
G|-----0-----------|---7---7..-------|---0-5-0.0......-|---7---7---7---7-|
D|---0-------------|-0..............-|-----------------|-0......-----0---|
A|-----------------|-----------------|-3......---------|---------0-------|
E|-3......---------|-----------------|-----------------|-----------------|


Verse 1:
   G                 D	               F                 D  
e|---------8-7-5-7...7......-8-7-5-0...0......58-7-5-7...7..-8..-10.-14.-|
B|-------0---------|-----7-----------|-----------------|---7---7---------|
G|-----0-----------|---7---7..-------|---0-5-0.0......-|-----------------|
D|---0-------------|-0..............-|-----------------|-0..............-|
A|-----------------|-----------------|-3......---------|---------0-------|
E|-3......---------|-----------------|-----------------|-----------------|

   G                 D                 C                 D 
e|-----------------|-----------------|-----------------|-----------------|
B|---------0-1-0..-|-----3....-------|---------1-1-0..-|-0.--------------|
G|----0.......-----|-2---------------|-------0---------|----2-2....------|
D|------0----------|-0....-020-----0-|-----------------|-0......-0-2-0---|
A|-----------------|-----------0-2---|-3..-3..-3......-|---------------0-|
E|-3..-------------|-----------------|-----------------|-----------------|

   G                 D                 C                 D 
e|-----------------|-----------------|-----------------|-----------------|
B|---------0-1-0..-|---3.....3......-|---------0-1-0..-|-0---------------|
G|-----------------|-2---------2-----|-----0-0---------|---2---2.2..---2-|
D|-----0-0---------|-------0-0---0..-|-----------------|-0......-0..-0---|
A|-----------------|-----------------|-3......-3......-|-----------------|
E|-3......-3......-|-2....-------0..-|-----------------|-----------------|

   C                 D                 G       D         Em 
e|---------0-0-0..-|-----------------|-----------------|-----------------|
B|-----------------|-3---------------|-----0-0-0..-3..-|---------------0-|
G|-0..-0-----------|-----2...--2-----|-----0---2......-|-0......---0-2---|
D|-----------------|-0...--0-0---0..-|-----------------|-------2---------|
A|-3..---3.3......-|-----------------|-----------------|-----2-----------|
E|-----------------|-----------------|-3......-2......-|-0..-----0......-|

   C                 D                 G                 D 
e|-----------------|-----------------|-----------------|-----------------|
B|-1-1....-1..-0..-|---------0-------|---------0-------|---------0-------|
G|-------0---------|-2-2....---2-----|-0---------2-0-2...2......---2-0---|
D|-----------------|-0..-0..-0..-0..-|-----------------|-0..-0...0....-2..
A|-3..-3---3......-|-----------------|-----------------|-----------------|
E|-----------------|-----------------|-3..-3...3......-|-----------------|

   C                 D
e|-----------------|-------------0..-|
B|---------0-------|-----0..-1..-----|
G|-----------2-----|-2..-------------|
D..2......-----0..-|-0.......0-0....-|
A|-3..-3...3......-|-----------------|
E|-----------------|-----------------|


Verse 2:
   G                 D                 C                 D 
e|-----------------|-----------------|-----------------|-----------------|
B|---------0-1-0..-|-----3....-------|---------1-1-0..-|-0.--------------|
G|----0.......-----|-2---------------|-------0---------|----2-2....------|
D|------0----------|-0....-020-----0-|-----------------|-0......-0-2-0---|
A|-----------------|-----------0-2---|-3..-3..-3......-|---------------0-|
E|-3..-------------|-----------------|-----------------|-----------------|

   G                 D                 C                 D 
e|-----------------|-----------------|-----------------|-----------------|
B|---------0-1-0..-|---3.....3......-|---------0-1-0..-|-0---------------|
G|-----------------|-2---------2-----|-----0-0---------|---2---2.2..---2-|
D|-----0-0---------|-------0-0---0..-|-----------------|-0......-0..-0---|
A|-----------------|-----------------|-3......-3......-|-----------------|
E|-3......-3......-|-2....-------0..-|-----------------|-----------------|

   C                 D                 G       D         Em 
e|---------0-0-0..-|-----------------|-----------------|-----------------|
B|-----------------|-3---------------|-----0-0-0..-3..-|---------------0-|
G|-0..-0-----------|-----2...--2-----|-----0---2......-|-0......---0-2---|
D|-----------------|-0...--0-0---0..-|-----------------|-------2---------|
A|-3..---3.3......-|-----------------|-----------------|-----2-----------|
E|-----------------|-----------------|-3......-2......-|-0..-----0......-|

   C                 D                 C                 D 
e|-----------------|-----------------|-0..-0-0.0....---|-----------------|
B|-1-1....-1..-0..-|---------0-------|-----------------|-3..-3-3.3....-1-|
G|-------0---------|-2-2....---2-----|-0......-------0-|-----------------|
D|-----------------|-0..-0..-0..-0..-|-----------------|-0......-0..-0..-|
A|-3..-3---3......-|-----------------|-3......-3..-3..-|-----------------|
E|-----------------|-----------------|-----------------|-----------------|

   G       D         Em                C                 D 
e|-----------------|-----------------|-0-0.....0..-0---|-----------------|
B|-0..-0-0-0-3....-|-------------1-3-|-----------------|-3..-3..-------0-|
G|-0......-2......-|-0........-------|-0..---0-------0-|-------2---2-2---|
D|-------------0..-|-------2---------|-----------------|-0....---0......-|
A|-----------------|-----2-----------|-3..-3---3......-|-----------------|
E|-3......-2..-----|-0..-----0..-----|-----------------|-----------------|

   C                 D                 G                 D 
e|-----------------|-----------------|-----------------|-----------------|
B|-1..-0..---------|-------0.0..-----|-----0..-0-------|---------0-------|
G|---------2..-0..-|-2..-2-------0..-|-0..-------2---2...2......---2-0---|
D|-----------------|-0......-0......-|-------------0---|-0..-0...0....-2..
A|-3......-3......-|-----------------|-----------------|-----------------|
E|-----------------|-----------------|-3......-3......-|-----------------|

   C                 D                 G                 D 
e|-----------------|-------------0..-|-----------------|-----------------|
B|---------0-------|-----0..-1..-----|---------0-------|---------0-------|
G|-----------2-----|-2..-------------|-----0-----2-0-2...2......---2-0---|
D..2......-----0---|-0.......0-0....-|---0---0.0......-|---0-0-0.0....-2-|
A|-3..-3...3......-|-----------------|-----------------|-----------------|
E|-----------------|-----------------|-3---------------|-----------------|

   C                 D
e|-----------------|-------------0..-|
B|---------0-------|-----0..-1..-----|
G|-------0---2-----|-2..-------------|
D..2..-2-------0..-|-0.......0-0....-|
A|-3-3-------------|-----------------|
E|-----------------|-----------------|


Verse 3:
   G                 G                 C                 D 
e|-----------------|-----------------|-0..-0-0.0....---|-----------------|
B|---------0-------|---------0..-3..-|-----------------|-3..-3-3.3....-1-|
G|-0..-------0---0...0......---------|-0......-------0-|-----------------|
D|-----0..-----0---|-----------------|-----------------|-0......-0..-0..-|
A|-----------------|-----------------|-3......-3..-3..-|-----------------|
E|-3..............-|-3..-3..---------|-----------------|-----------------|

   G       D         Em                C                 D 
e|-----------------|-----------------|-0-0.....0..-0---|-----------------|
B|-0..-0-0-0-3....-|-------------1-3-|-----------------|-3..-3..-------0-|
G|-0......-2......-|-0........-------|-0..---0-------0-|-------2---2-2---|
D|-------------0..-|-------2---------|-----------------|-0....---0......-|
A|-----------------|-----2-----------|-3..-3---3......-|-----------------|
E|-3......-2..-----|-0..-----0..-----|-----------------|-----------------|

   C                 D                 G                 D 
e|-----------------|-----------------|-----------------|-----------------|
B|-1..-0..---------|-------0.0..-----|-----0..-0-------|---------0-------|
G|---------2..-0..-|-2..-2-------0..-|-0..-------2---2...2......---2-0---|
D|-----------------|-0......-0......-|-------------0---|-0..-0...0....-2..
A|-3......-3......-|-----------------|-----------------|-----------------|
E|-----------------|-----------------|-3......-3......-|-----------------|

   C                 D                 G                 D 
e|-----------------|-------------0..-|-----------------|-----------------|
B|---------0-------|-----0..-1..-----|---------0-------|---------0-------|
G|-----------2-----|-2..-------------|-----0-----2-0-2...2......---2-0---|
D..2......-----0---|-0.......0-0....-|---0---0.0......-|---0-0-0.0....-2-|
A|-3..-3...3......-|-----------------|-----------------|-----------------|
E|-----------------|-----------------|-3---------------|-----------------|

   C                 D                 G                 D 
e|-----------------|-------------0..-|-----------------|-----------------|
B|---------0-------|-----0..-1..-----|---------0-------|---------0-------|
G|-------0---2-----|-2..-------------|-0......---2-0-2...2......---2-0---|
D..2..-2-------0..-|-0.......0-0....-|-----0...0......-|-0..-0...0....-2..
A|-3-3-------------|-----------------|-----------------|-----------------|
E|-----------------|-----------------|-3..-------------|-----------------|

   C                 D                 G                 D 
e|-----------------|-------------0..-|-----------------|-----------------|
B|---------0-------|-----0..-1..-----|---------0-------|---------0-------|
G|-----------2-----|-2..-------------|-----0-----2-0-2...2......---2-0---|
D..2......-----0..-|-0.......0-0....-|---0---0.0......-|---0-0-0.0....-2..
A|-3..-3...3......-|-----------------|-----------------|-----------------|
E|-----------------|-----------------|-3---------------|-----------------|

   C                 G
e|-----------------|-----------------||
B|-----------0-----|-----------------||
G|-------0-2-----0...0..............-||
D..2..-2---0..-0---|-----------------||
A|-3-3-------------|-----------------||
E|-----------------|-3..............-||

_______________________________________________________
Contribuição: Daniel Vizentini(endbol@yahoo.com) 
Correção: João Vitor (jv_rj@zipmail.com.br)

©2003 eric-clapton.cifras.art.br - todos os direitos reservados